Le retour !
 
AccueilAccueil  FAQFAQ  RechercherRechercher  S'enregistrerS'enregistrer  MembresMembres  GroupesGroupes  Connexion  

Partagez | 
 

 Répertoire - miyavi [Tablatures]

Aller en bas 
AuteurMessage
Libby
Chef des Kikoo
avatar

Féminin
Nombre de messages : 2831
Age : 28

MessageSujet: Répertoire - miyavi [Tablatures]   Mer 6 Juin - 21:22

Cliquez sur le titre pour aller au bonne endroit !

S'il n'y a pas de précision sur les instruments c'est qu'ils y sont en parties tous..

..:: A ::..


Ashita, tenki ni naare (guitare acoustique)

..:: B ::..

..:: C ::..

..:: D ::..

..:: E ::..

..:: F ::..

..:: G ::..

..:: H ::..

..:: I ::..


Itoshii hito

..:: J ::..

..:: K ::..

..:: L ::..

..:: M ::..

..:: N ::..

..:: O ::..

..:: P ::..

..:: Q ::..

..:: R ::..

..:: S ::..


Shakespeare Ni Sasagu (guitare acoustique)

..:: T ::..

..:: U ::..

..:: V ::..

..:: W ::..

..:: X ::..

..:: Y ::..

..:: Z ::..


Dernière édition par le Mer 25 Juil - 13:24, édité 1 fois
Revenir en haut Aller en bas
Voir le profil de l'utilisateur
Koyuki-kun
P'tit Kikoo
avatar

Masculin
Nombre de messages : 175
Age : 28

MessageSujet: Re: Répertoire - miyavi [Tablatures]   Ven 8 Juin - 18:51

Lol c'est complet dit moi xP

J'ai quelque tab ci tu veut
Revenir en haut Aller en bas
Voir le profil de l'utilisateur https://www.dailymotion.com/koyuki-kun
Sheeta
Grand Kikoo
avatar

Féminin
Nombre de messages : 1498
Age : 31
Localisation (ZONE A,B ou C) : dans le visualand

MessageSujet: Re: Répertoire - miyavi [Tablatures]   Ven 8 Juin - 20:00

Ben on vient de commencer les parties tab et ni Libby ni moi ne jouons de la guitare, donc on n'a pas beaucoup de tablature, mais si tu veux tu peux nous envoyer par MP ça serait trèèès gentil ^^
Revenir en haut Aller en bas
Voir le profil de l'utilisateur
Libby
Chef des Kikoo
avatar

Féminin
Nombre de messages : 2831
Age : 28

MessageSujet: Re: Répertoire - miyavi [Tablatures]   Ven 8 Juin - 20:34

ça m'interesse carrement moi.. !! Si tu en as je les veux bien *o* s'il te plaît !! en plus elles sont magnifiques les chansons de miyavi j'adoooore... [et comme dit Sheeta il n'y a rien parce que je viens juste de faire les parties ^^']
Revenir en haut Aller en bas
Voir le profil de l'utilisateur
Koyuki-kun
P'tit Kikoo
avatar

Masculin
Nombre de messages : 175
Age : 28

MessageSujet: Re: Répertoire - miyavi [Tablatures]   Ven 8 Juin - 23:14

oki oki filer vos msn =X
Revenir en haut Aller en bas
Voir le profil de l'utilisateur https://www.dailymotion.com/koyuki-kun
kenshin5
Invité



MessageSujet: Re: Répertoire - miyavi [Tablatures]   Mer 29 Aoû - 14:14

Revenir en haut Aller en bas
Aiji000
Invité



MessageSujet: Re: Répertoire - miyavi [Tablatures]   Mer 19 Sep - 20:50

Aiji000@hotmail.com
j'ai les 3 bandscore de miyavi ^^
Revenir en haut Aller en bas
Libby
Chef des Kikoo
avatar

Féminin
Nombre de messages : 2831
Age : 28

MessageSujet: Re: Répertoire - miyavi [Tablatures]   Mer 19 Sep - 22:12

interessant ! [je sais pas ce que c'ets mais bon -_-'' mdr]
Revenir en haut Aller en bas
Voir le profil de l'utilisateur
Yakineko
Kikoo Rebelle
avatar

Féminin
Nombre de messages : 268
Age : 28

MessageSujet: Re: Répertoire - miyavi [Tablatures]   Mer 3 Oct - 17:11

Woah thanks *o*

*danse partout en chantonnant* ♫ J'vais pouvoir apprendre Itoshii Hito, euh ! J'vais pouvoir apprendre Itoshii Hito, euh ! ♪
Revenir en haut Aller en bas
Voir le profil de l'utilisateur
¤Miyako¤
Kikoo Master
avatar

Féminin
Nombre de messages : 4280
Age : 27
Localisation (ZONE A,B ou C) : zone B

MessageSujet: Re: Répertoire - miyavi [Tablatures]   Mer 3 Oct - 17:22

De rien ^___^
Revenir en haut Aller en bas
Voir le profil de l'utilisateur http://brutal-autism.skyblog.com
miyavi
Kikoo Rebelle
avatar

Masculin
Nombre de messages : 388
Age : 25
Localisation (ZONE A,B ou C) : Chez miyavi

MessageSujet: Re: Répertoire - miyavi [Tablatures]   Mer 3 Oct - 18:24

espirat_anthony@hotmail.com

Jveu des tabs sVp ?

Et celle du slap vous l'avait ?
Revenir en haut Aller en bas
Voir le profil de l'utilisateur http://miyavi63.skyrock.com/
Koyuki-kun
P'tit Kikoo
avatar

Masculin
Nombre de messages : 175
Age : 28

MessageSujet: Re: Répertoire - miyavi [Tablatures]   Ven 5 Oct - 22:59

je conné le riff de slap mais je les est cas l'oreille....
Revenir en haut Aller en bas
Voir le profil de l'utilisateur https://www.dailymotion.com/koyuki-kun
miyavi
Kikoo Rebelle
avatar

Masculin
Nombre de messages : 388
Age : 25
Localisation (ZONE A,B ou C) : Chez miyavi

MessageSujet: Re: Répertoire - miyavi [Tablatures]   Mer 31 Oct - 16:45

Slap a la miyavi xD pour vous

B#|--------------------------------|
F#|--------------------------------|
B |--------------------------------|
E |--------------------------------|
G#|10/-2----5----X---7---5^-----------|
C#|10/-0-S--3-S--X-----------6-5--3---|



B#|--------------------------------------------------------|
F#|--------------------------------------------------------|
B |--------------------------------------------------------|
E |-------------------5------------------------------------|
G#|-2-2---5----------------------0-75/75-8---------------|
C#|-0-0-S-3-S---7-5-7---6-5--S---0-53/53-6--------------|


B#|--------------------------------|
F#|--------------------------------|
B |--------------------------------|
E |------5--5p0--------------------|
G#|-------------5p0----------------|
C#|-0h5h7-----------5p0-3p0--S-----|



B#|-------------------------------------------------------------------------------|
F#|-------------------------------------------------------------------------------|
B |-----------------------------------------(5)-----------------------------------|
E |-----------------------------------------(5)-----------------------------------|
G#|2-2-----2-2-----2-2-----2-2------2-2-----(5)--2-2-----2-2-----2-2------7--5----|
C#|0-0-3p0-0-0-3p0-0-0-3p0-0-0-3p0--0-0-3p/5(5)--0-0-3p0-0-0-3p0-0-0-3p0-------6-5|



B#|-----------------------------------------------------------------------|
F#|-----------------------------------------------------------------------|
B |-----------------------------------------------------------------------|
E |-----------------------------------------------5-----7-----8------7----|
G#|2-2-----2-2-----2-2-----2-2------2-2---------------------------------2-|
C#|0-0-3p0-0-0-3p0-0-0-3p0-0-0-3p0--0-0-3p0---0h3---0h5---0h6---0h5-----0-|

S= Claquement de doigt xD
Revenir en haut Aller en bas
Voir le profil de l'utilisateur http://miyavi63.skyrock.com/
Shizuka
P'tit Kikoo
avatar

Féminin
Nombre de messages : 55
Age : 28

MessageSujet: Re: Répertoire - miyavi [Tablatures]   Jeu 1 Nov - 16:40

Alors il y en a vraiment beaucoup ici donc j'ai pas tout noté, vous trouverez surement votre bonheur ^^

http://www.freewebs.com/jrocktabbed/tabsmz.htm#miyavi
Revenir en haut Aller en bas
Voir le profil de l'utilisateur http://asiiagraph.forumotion.com
Koyuki-kun
P'tit Kikoo
avatar

Masculin
Nombre de messages : 175
Age : 28

MessageSujet: Re: Répertoire - miyavi [Tablatures]   Ven 9 Nov - 22:28

merci beaucoup
Revenir en haut Aller en bas
Voir le profil de l'utilisateur https://www.dailymotion.com/koyuki-kun
Contenu sponsorisé




MessageSujet: Re: Répertoire - miyavi [Tablatures]   

Revenir en haut Aller en bas
 
Répertoire - miyavi [Tablatures]
Revenir en haut 
Page 1 sur 1
 Sujets similaires
-
» attention appel cotisation rsi foireux !!!
» RECHERCHE D'EMPLOI DANS LE NOTARIAT
» récupération des données

Permission de ce forum:Vous ne pouvez pas répondre aux sujets dans ce forum
 :: ♥ Musiques ♥ :: * miyavi :: ° Songz' (Lyrics / Tablatures...) :: Tablatures-
Sauter vers: